A grande volta

Introdução: Ebm Db Bb

 

Ebm

Olha só quem voltou, movimento de valor

Db Bb

que mostrou porque sabia se ligou que agora é dia

Ebm

Que era sol, que alegria vou juntar toda família

Abm

Junta os manos, a gataria festa boa vai rolar

Ebm

A grande volta que sempre um pra dar o gás agora sim

Db Bb

Esquentou na veia e vira volta a coisa assim

Ebm

Noite conta que sempre um pra dar o gás agora sim

Db Bb

esquentou na veia e vira volta a coisa assim

Ebm Gb

O mel no lábio que resseca a boca

Ebm Gb

O mel na boca que te deixa louca

[Repete]

 

Aquela Paz

Introdução:

 

Riff 1:

E G# D#

e:-----------------------------------------|

B:-----------------------------------------|

G:-----------------------------------------|

D:------4---4----4---4--6--4---4---4---4---|

A:----7---7----7---7---------6---6---6-----|

E:--0--------------------------------------|

Riff 2:

e:---------|

B:---------|

G:---------|

D:------4--|

A:--7-7----|

E:---------|

[Riff 2]

A Vida é feita de atitudes nem sempre descentes

não lhes julgam pela razão mas pelo seus antecedentes

E G#

É quando eu volto a me lembrar do que eu pensava nem ter feito

D# E

Vem me traz aquela paz, Você procura a perfeição,

G# D#

eu tenho andado sobre efeito posso te dizer que já não aguento mais

E G#

Desencana não vou mudar por sua causa não tem jeito

D# E G# D#

Quem é que decide o que é melhor pra minha vida agora?

A# G# D#

Ouvi dizer que só era triste quem queria

A# G# D#

Ouvi dizer que só era triste quem queria

E

Lidei com coisa que jamais entenderei

G# D#

Ah, se eu pudesse estar em paz,

E

me livrar do pesadelo de vê-lo nesse estado

G# D#

e não poder ajudá-lo, não

E G# D#

Triste é poder mudar, porque estais tão revoltado irmão

A# G# D#

Ouvi dizer que sé era triste quem queria

A# G# D#

Ouvi dizer que só era triste quem queria

 

SOLO:

e:-----------------------------------------------------------2-2-2-2-2-2-

B:----------10/12--5-8------------------------------2-2-2-2-2------------

G:---------9-----------7--9p7-------------3-3-3-3-3----------------------

D:-9-10-12--------------------9--3-3-3-3-3-------------------------------

A:-----------------------------------------------------------------------

E:-----------------------------------------------------------------------

 

e:-8h10p8-7---------------------------------------------------------^^--|

B:----------8h10-8---8-----------------8/10-8/10-------------------11---|

G:-----------------5---5-7-5--9-7-5--5-----------5-7-5--9-7-5--5/10-----|

D:----------------------------------------------------------------------|

A:----------------------------------------------------------------------|

E:----------------------------------------------------------------------|

A# G# D#

Ouvi dizer que sé era triste quem queria

A# G# D#

Ouvi dizer que só era triste quem queria

[Riff2]

A Vida é feita de atitudes descentes

não lhes julgam pela razão,

mas pelo seus antecedentes,

Cuidado com seus passos

 

 

Charlie Brown jr

Main Riff:

 

e|-------------------------------------------------|

B|-------------------------------------------------|

G|-------------------------------------------------|

D|--------------------------7----------------------|

A|---2----------7-----------5----------2-----------|

E|---0----------5----------------------0-----------|

 

 

e|-------------------------------------------------|

B|-------------------------------------------------|

G|-------------------------------------------------|

D|----------5----6---------------------------------|

A|--2--5--7-------7--5---7--7----5----3-----2------|

E|--0-----------------------5----3----1-----0------|

 

Como tudo deve ser

Introdução:

Riff 1:

e----------------------------------------------------

B----------------------------------------------------

G-------5-5-----7--7-3-3--3-------5-5-----7--7-3-33-

D-7-7-7-5--5-5---7-7-3--3---7-7-7-5--5-5---7-7-3--3--

A-7--7--3---3--5---5-1---1--7--7--3---3--5---5-1---1-

E-5-------------------------5------------------------

e----------------------------------------------------

B----------------------------------------------------

G-------5-5-----7--7-3-3--3-------5-5-----7--7-3-33-

D-7-7-7-5--5-5---7-7-3--3---7-7-7-5--5-5---7-7-3--3--

A-7--7--3---3--5---5-1---1--7--7--3---3--5---5-1---1-

E-5-------------------------5------------------------

 

Riff 2:

e-----------------------------------------------------------------

B-----------------------------------------------------------------

G--7-10-9-7-5-5-7-5-7/10-9-7-5-5---7-10-9-7-5-5-7-5-7/10-9-7-5-5--

D-7----------7------------------7-7----------7------------------7-

A-----------------------------------------------------------------

E-----------------------------------------------------------------

e-----------------------------------------------------------------

B-----------------------------------------------------------------

G--7-10-9-7-5-5-7-5-7/10-9-7-5-5---7-10-9-7-5-5-7-5-7/10-9-7-5-5/7

D-7----------7------------------7-7----------7--------------------

A-----------------------------------------------------------------

E-----------------------------------------------------------------

Riff 3:

e---------------------------------

B-13-13-10-10-10-13-13-10-10-10-13

G----------------------------------

D----------------------------------

A----------------------------------

E----------------------------------

 

[Riff 1]

Um belo sonho veio então despertar minha vontade

tudo vale a pena pra te reencontrar

me livrei de tudo aquilo e consegui mudar

tudo que foi feito em troca de uma

amizade, felicidade é poder estar com

quem você gosta em algum lugar, é foda

ser louco, advogado do mundo mas, como tudo deve ser?

é foda ser taxado de doido vagabundo mas,como tudo deve ser?

[Riff 3]

Foi quando te encontrei ouvindo um som e olhando o mar

Foi quando te encontrei ouvindo o som do mar rolar

[Riff 1]

Eu não nasci ontem,bem como,quando e por onde

Hoje sei bem mais como o mundo deve ser, com as balizas do nosso sistema

Sigo imprimido meu sonho na história como tudo deve ser

Um belo sonho veio então despertar minha vontade

Tudo vale a pena pra te reencontrar

Me livrei de tudo aquilo e consegui mudar

Tudo que foi feito em troca de uma amizade mais

 

[Riff 3]

Foi quando te encontrei ouvindo um som e olhando o mar

Foi quando te encontrei ouvindo o som do mar rolar

[Riff 2]

[Riff 1]

Eu não preciso de promessas e acho que você também

Eu não tento ser perfeito e acho que você também

Dias e noites pensando no que fiz eu sou um vencedor lutei pelo que fiz

Mas quando não se pode mais mudar tanta coisa errada

Vamos viver os nossos sonhos,pois temos tão pouco tempo

Riff 3

Foi quando te encontrei ouvindo um som e olhando o mar

Foi quando te encontrei ouvindo o som do mar rolar

[Riff 1]

[Riff 3]

Foi quando te encontrei ouvindo um som e olhando o mar

Foi quando te encontrei ouvindo o som do mar rolar

 

 

Confisco

Riff 1:

e:-------------------------------|

B:-------------------------------|

G:-------------------------------|

D:---7--4-4--4-7--4-4--4-7-------|

A:---7--4-4--4-7--4-4--4-7-------|

E:---5--2-2--2-5--2-2--2-5-------|

 

Pré Chorus:

[Guitar 1]

e:--------------------------------------------------|

B:--------------------------------------------------|

G:--4-4-4-4-4---7-7-7-7-7---------------9-9-9-9-9---|

D:--4-4-4-4-4---7-7-7-7-7---7-7-7-7-7---9-9-9-9-9---|

A:--2-2-2-2-2---5-5-5-5-5---7-7-7-7-7---7-7-7-7-7---|

E:--------------------------5-5-5-5-5---------------|

[Guitar 2]

e:----------------------------------------------|

B:----------------------------------------------|

G:-----9/11-9-7-9-11-9-7------9/11-9-7-9-11-9---|

D:--9----------------------7--------------------|

A:----------------------------------------------|

E:----------------------------------------------|

 

Riff 1

Refrão:

e:--------------------------------------|

B:--------------------------------------|

G:-------8-8-8-8-8--------4-4-4-4-4-----|

D:--6-6--8-8-8-8-8---4-4--4-4-4-4-4-----|

A:--6-6--6-6-6-6-6---4-4--2-2-2-2-2-----|

E:--4-4--------------2-2----------------|

[Riff 1]

[Pré Chorus]

[Riff 1]

[Refrão]

[Riff 1]

Final: A F#

 

Corra Vagabundo

Intro 1:

Eb5 E5 Db5 Eb5 E5

E|---------------------------------------------------------|

B|----------9---------------------------9------------------|

G|-5-----9-----9--6--8--9--8---------9-----9--6--8--9--8\--|

D|----6-------------------------8--------------------------|

A|---------------------------------------------------------|

E|---------------------------------------------------------|

Intro 2:

Eb5 E5 Db5

E|------------6--------------------------------------------|

B|----6/8--9-----9-----6/8---------------------------------|

G|-8----------------9-------8/9-----------7-7--7-7---7-7---|

D|----------------------------------------7-7--7-7---7-7---|

A|----------------------------------------6-6--6-6---6-6---|

E|---------------------------------------------------------|

Riff 1:

E|--------------|

B|--------------|

G|--------------|

D|----8-~~~~~~~-|

A|-7------------|

E|--------------|

Riff 2:

E|--------------|

B|--------------|

G|--------------|

D|----8~~~~~~\--|

A|-7------------|

E|--------------|

Riff 3:

E|--------------------|

B|--------------------|

G|--------------------|

D|----------8---------|

A|-7--6--7-----7--6---|

E|--------------------|

 

Eb5

Corra vagabundo, olha a polícia aí

E5

Porque eu não quero ficar na cadeia

Db5

o dia inteiro a noite inteira

Eb5 E5

o dia passa na doideira e também passa do ponto

Db5

Chegamos onde deveria ser Vagabundo deitado,

Eb5

mão na cabeça, identidade

E5 Db5

Não minta não porque, se não vai ser pior pra você

Eb5 [Riff 1]

Corra vagabundo, olha a polícia ai

Eb5 [Riff 2]

Corra vagabundo, olha a polícia ai

[Repete]

 

 

 

Descubra o Que há de Errado com Você

(Fm,Db5,Abm,Eb5)

De fato eu vou lembrar, Mas é melhor dizer

Sinto muito não posso esperar você

Procure algo melhor e então vai descobrir

Um mundo inexplorado em você

(Fm)

A quanto tempo estou sonhando acordado

Quanto tempo perdido, Eu perco tempo demais

Não me pergunte o que é que eu quero da vida

O que é que eu quero da vida, Eu tenho sede demais

(Fm,Db5,Abm,Eb5)

Não venha me rotular, Você também não é ninguém

Descubra o que há de errado com você

Não venha me rotular, Você nem é ninguém

Descubra o que há de errado com você

[Riff 1]

Daqui pra frente Vai ser bem diferente

[Riff 2]

Melhor daqui pra frente Vai ser bem diferente, uô

 

Riff 1:

e|--8x--6x--4x--3x--1x----8--8--8--8-|

B|--8x--6x--4x--3x--1x----8--8--8--8-|

G|--10x-8x--6x--5x--3x----10-10-10-10|

D|--10x-8x--6x--5x--3x----10-10-10-10|

A|--8x--6x--4x--3x--1x----8--8--8--8-|

E|--8x--6x--4x--3x--1x----8--8--8--8-|

Riff 2:

e|--8x--6x--4x--3x--1x----3--1--3--1|

B|--8x--6x--4x--3x--1x----3--1--3--1|

G|--10x-8x--6x--5x--3x----5--3--5--3|

D|--10x-8x--6x--5x--3x----5--3--5--3|

A|--8x--6x--4x--3x--1x----3--1--3--1|

E|--8x--6x--4x--3x--1x----3--1--3--1|

 

 

Escalas Tropicais

Introdução: C Eb F C Eb F C Eb F C

 

(C G F7 C G7 Ab7 G7 Ab7 C F C G Ab7 G7 Ab7 G7 Ab7)

Um dia lindo céu azul e coisa e tal

Viajando no Eugênio na lagoa, na moral

Eu vou comendo a vontade eu jogando carteado

Eu faço a boa no veio, ah, coitado...

Tomo aulas de dança de salão eu me bronzeio no sol do verão

Sei que sereia é sereia, que piranha é piranha

mas no fundo da rede a gente sempre se engana

escalas tropicais, belas e naturais <<Bis>>

nega afunda, nega faz assim com bunda há

Não tenho nada mas posso até me endividar

Ou põe na conta do Eugênio, um grande amigo que eu tenho

Mora aqui no navio, tava aqui você não viu?

Me jogaram na lagoa todo mundo percebeu

Mas os caras do Lagoa são tudo amigo meu

ligo sempre a cobrar pra casa do Tadeu,

Alô? "Qualé" Tadeu? "Qualé" Tadeu?

Hu-ha, hu-ha, Hu-ha, hu-ha

escalas tropicais, belas e naturais <<Bis>>

 

 

Eu protesto

E|--------------------------------------------|

B|---11-9-7-9-7-6-7-6------11-9-7-9-7-6-7-6---|

G|-8------------------6--8------------------6-|

D|--------------------------------------------|

A|--------------------------------------------|

E|--------------------------------------------|

E|--------------------------------------------|

B|--------------------------------------------|

G|------8/10/6-10-8-10--------8/10/6-10-8-10--|

D|--8-8-------------------8-8-----------------|

A|--------------------------------------------|

E|--------------------------------------------|

 

Riff 1:

e-----------------------|

B-----------------------|

G-9999999--5555--7777---|

D-9999999--5555--7777---|

A-7777777--3333--5555---|

E-----------------------|

e-----------------------|

B--8-8--8-8-8-8--8------|

G--9-9--7-7-9-9--7------|

D--9-9--5-5-9-9--5------|

A--7-7------7-7---------|

E-----------------------|

 

Gimme o anel

Introdução: E D A G

E D A G

Eu não sei nada de matemática

E D A G

sou um estúpido em francês

E D A G

Eu não sei nada de geografia

E D

Mas sou perito em anatomia

A G

e manjo pouco de inglês

E D

Do you wanna gimme girl?

A G

Do you wonna gimme o anel?

E D

Do you wonna gimme girl?

A H

Do you wonna go pro motel? Yeah!

E D A G

[SOLO]

 

E D A G

Ela riu de mim, disse que talvez

E D

Se eu fosse um cara de nome

A G

ou se eu fosse um burguês

E D

Eu disse: calma neném eu tive

A G E D

um dia difícil, Dinheiro você já tem, eu

A G

te ofereço meu míssil

[Repete]

E D A G

[SOLO]

B7 G C E D A G

[SOLO VOCAL]

E D A G

Ela riu de mim, disse que talvez

E D

Se eu fosse um cara de nome

A G

ou se eu fosse um burguês

E D A G

Alem do que, nem tenho carro importado

E D

Meu tênis fede, é barato e eu

A G

ainda sou um desbocado!

[Repete]

(E D A G)

Xanas tucon, la raxazon, Xanas tucon, Xanas tucon, La rachazon

Hoje de Noite

Introdução: Ebm

 

Ebm

Hoje de noite, deixo a porta aberta, Eu quero entrar

Nunca estarei pensando em algo mal pra nós dois

Abm E

Depois daquela noite eu resolvi, Não olhar pra trás

Abm E Ebm

Nunca duvidar, não subestimar Nunca ser tão, tão legal, Tão legal, iê

Ebm

Nunca estarei pensando em algo mal pra ninguém

Hoje de noite, deixo a porta aberta, Eu quero entrar

Não olhar pra trás, Nunca duvidar, não subestimar

Abm E

Depois daquela noite eu resolvi, Não olhar pra trás

Abm E Ebm

Nunca duvidar, não subestimar, Nunca ser tão, tão legal, Tão legal, iê

(Ebm)

O que envelhece há muito tempo

é rumo errado, está na mão de quem te julga

Vá tome gole mas, por isso não nunca implore

de um jeito se vire pra vivenciar esse crime

Fico parado e me viro no espaço

Preste atenção, na sua história

pense no sucesso, porque dinheiro nunca foi superioridade

tanto faz endinheirado e feliz pela cidade

Dinheiro nunca foi superioridade

Menininha da família, mais de um mês que banca otário

e se apaixona pelo mundo que rola na minha área

Eu já vi muito disso, eu já passei por isso

Ha, ha, Qual é galera? Eu já passei por isso...

(Abm E)

Depois daquela noite eu resolvi não olhar pra trás

Nunca duvidar, não subestimar, Nunca ser tão, tão legal, Tão legal, iê

(Ebm)

Não olhar pra trás, nunca duvidar, não subestimar <<Eis>>

Abm E

Depois daquela noite eu resolvi não olhar pra trás

Abm E

Nunca duvidar, não subestimar, nunca ser tão, tão legal, tão legal

(Eb)

 

 

Hoje Eu Acordei Feliz

Introdução:

 

Riff 1:

e|----------------------------------------------------------------|

B|------------13---------------13/15--13--------------------------|

G|-12-------------12----10-----------------12--10--12---10--9---9-|

D|-----10-10------------------------------------------------------|

A|----------------------------------------------------------------|

E|----------------------------------------------------------------|

Riff 2:

e|-5-5----7--7-7----9---9--9-----10-9--7-5-|

B|-5-5----7--7-7----9---9--9-----10-9--7-5-|

G|-7-7----9--9-9----11--11-11----12-11-9-7-|

D|-7-7----9--9-9----11--11-11----12-11-9-7-|

A|-5-5----7--7-7----9---9--9-----10-9--7-5-|

E|-5-5----7--7-7----9---9--9-----10-9--7-5-|

 

D5 Am B5 Gm

Hoje eu acordei para sorrir mostrar os dentes

D5 Am B5 Gm

Hoje eu acordei para matar o presidente

[Riff 2]

Hoje tem festa, ela vai tar eu vou Vai ser perfeito

eu vou fazer o que você jamais teria feito

D5 Gm Am D5 Gm Am

Hoje eu acordei feliz Sonhei com ela a noite inteira Eu sempre quis

D5 Gm Am D5 Gm Am

Hoje eu acordei feliz Sonhei com ela a noite inteira Eu sempre quis,

Só não quero acordar

D5 Am B5 Gm

Chegou ficou do lado não parou de olhar pra mim

D5 Am B5 Gm

Eu sinto lhe dizer mas sou o cara que ela é a fim

[Riff 2]

O sexo é bom o amor, melhor, os dois então perfeito

Eu vou fazer o que você jamais teria feito

D5 Gm Am D5 Gm Am

Hoje eu acordei feliz Fiquei com ela a noite inteira Eu sempre quis

D5 Gm Am D5 Gm Am

Hoje eu acordei feliz Fiquei com ela a noite inteira Eu sempre quis

Só não quero acordar

D5 Gm Am

[SOLO VOCAL]

D5 Gm Am D5 Gm Am

Hoje eu acordei feliz Fiquei com ela a noite inteira Eu sempre quis

D5 Gm Am D5 Gm Am

Hoje eu acordei feliz Fiquei com ela a noite inteira Eu sempre quis

Só não quero acordar

[Riff 1]

Chegou, ficou do lado, já sentiu um pouco daquele efeito

Eu vou fazer o que você jamais teria feito

Não quero acordar, não, Não quero acordar, não, Não quero acordar, não

Am B5 C#5 D5 Am

[SOLO]

 

 

Lugar ao Sol

Introdução: Gm F Eb7M

Gm F

Que bom viver como é bom sonhar,

Eb7M Gm

o que ficou pra trás passou e eu não me importei

F Eb7M

Foi até melhor tive que pensar em algo novo que eu fizesse sentido

Gm F

Ainda vejo o mundo com os olhos de criança

Eb7M

que só quer brincar e não tanta responsa

Gm F Eb7M

Mas a vida cobra, à sério e realmente não dá pra fugir

 

Bb7M Gm Eb7M

Mas livre pra poder sorrir, sim, livre pra poder buscar

Bb7M Eb7M Ebm7

o meu lugar ao Sol <<Bis>>

Gm F Eb7M

Um dia eu espero te reencontrar numa bem melhor cada um tem seu caminho

Gm F Eb7M

e eu sei que foi até melhor Irmãos do mesmo Cristo, quero e não desisto

Gm F

Caro pai, como é bom ter com o que se orgulhar

Eb7M Gm

A vida pode passar não estou sozinho eu sei, se eu tiver fé

F Eb7M

Eu volto até sonhar

Bb7M Gm Eb7M

Mas livre pra poder sorrir, sim, livre pra poder buscar

Bb7M Eb7M Ebm7

o meu lugar ao Sol <<Bis>>

Gm F Eb7M

O amor é assim, é a paz de Deus em sua casa

Gm F Eb7M

O amor é assim, é a paz de Deus em sua casa

Gm F Eb7M

O amor é assim, é a paz de Deus que nunca acaba

C9 Eb9 C9 Eb9 Gm F Gm F Eb7M Gm F Eb7M

[SOLO]

Gm F Eb7M

Nossas vidas, nossos sonhos tem o mesmo valor

Gm F

Nossas vidas, nossos sonhos tem o mesmo valor

Eb7M

Eu vou com você para onde você for

Gm F Eb7M

Eu descobri que é azul a cor da parede da casa de Deus

Gm F Eb7M

e não há mais ninguém como você e eu

 

Não deixe o mar te engolir

*Introdução:

|-------------------------------------------------------|

|-------------------------------------------------------|

|-------------------------------------------------------|

|------------------------------5------------------------|

|---5-7---5-7-------5-----5------7----------------------|

|-0-----0-----0-5-7---7-7----7--------------------------|

 

|-------------------------------------------------------|

|-------------------------------------------------------|

|--7-7-7-7-7-7-7-7-7-7-7-7-7-7-7-7-7-7-7-7-7-7-7-7-7-7--|

|--7-7-7-7-7-7-7-7-7-7-7-7-7-7-7-7-7-7-7-7-7-7-7-7-7-7--|

|--5-5-5-5-5-5-5-5-5-5-5-5-5-5-5-5-5-5-5-5-5-5-5-5-5-5--|

|-------------------------------------------------------|

 

|-------------------------------------------------------|

|-------------------------------------------------------|

|-------------------------------------------------------|

|-------------------------5-----------------------------|

|---5-7---5-7-----5---5-----7---------------------------|

|-0-----0-----0-5---7---7-------------------------------|

 

|-------------------------------------------------------|

|-------------------------------------------------------|

|--11--11-----7-7-7-7-7---------------------------------|

|--11--11-----7-7-7-7-7---------------------------------|

|--9---9------5-5-5-5-5---------------------------------|

|-------------------------------------------------------|

 

|-------------------------------------------------------|

|-------------------------------------------------------|

|--7/9-7/9--7/9-7-7-7-7-7----------------11-------------|

|--7/9-7/9--7/9-7-7-7-7-7----------------11-------------|

|--5/7-5/7--5/7-5-5-5-5-5----Termina com 9--------------|

|-------------------------------------------------------|

*Afinação: Eb

 

 

Não É Sério

Introdução: D#m F#

Riff 1:

e|--11----11----11----11----11----11----11----11--|

B|--11----11----11----11----11----11----11----11--|

Riff 2:

e|-------------------------------------------------|

B|-4-4-4-4/6/7-4-4-4--2-4--4-4-4-4/6/7--4-4-4--7-9-|

G|-------------------------------------------------|

Riff 3:

e|-------------------------------------------------|

B|-4-4-4-4/6/7-4-4-4--2-4--4-4-4-4/6/7--4-4--------|

G|-------------------------------------------------\

Riff 4:

e|-6---6~13--16~6--6~1--1~6----6---6~13--16~6--6~1--1~6---|

B|--------------------------------------------------------|

 

(D#m F#)

Eu vejo na TV o que eles falam sobre o jovem

Não é sério, o jovem no Brasil nunca é levado a sério

Sempre quis falar, nunca tive chance

Tudo que eu queria Estava fora do meu alcance

Sim, já, já faz um tempo mas eu gosto de lembrar

Cada um, cada um, Cada lugar, um lugar

Eu sei como é difícil, Eu sei como é difícil acreditar

Mas essa porra um dia vai mudar

Se não mudar, pra onde vou?

Não cansado de tentar de novo Passa a bola, eu jogo o jogo

Eu vejo na TV o que eles falam sobre o jovem

Não é sério, o jovem no Brasil nunca é levado a sério

A polícia diz que eu já causei muito distúrbio

O repórter quer saber porque eu me drogo

O que é que eu uso

Eu também senti a dor

E disso tudo eu fiz a rima

Agora tô por conta

Pode crer que eu tô no clima

Eu tô no clima, segue a rima

(D#m F#)

[Riff4]

Revolução na sua mente, Você pode, você faz

Quem sabe mesmo é quem sabe mais

Também sou rimador, Também sou da banca

Aperta forte que tudo fica à pampa

Eu tô no clima, segue a rima

[Riff2]

[Riff3]

[Riff2]

[Riff3]

(D#m F#)

Sempre quis falar, nunca tive chance

Tudo que eu queria Estava fora do meu alcance

Sim, já, já faz um tempo mas eu gosto de lembrar

Cada um, cada um, Cada lugar, um lugar

Eu sei como é difícil, Eu sei como é difícil acreditar

Mas essa porra um dia vai mudar

Se não mudar, pra onde vou?

Não cansado de tentar de novo Passa a bola, eu jogo o jogo

(D#m F#)

Eu vejo na TV o que eles falam sobre o jovem

Não é sério, o jovem no Brasil nunca é levado a sério

A polícia diz que eu já causei muito distúrbio

O repórter quer saber porque eu me drogo

O que é que eu uso

Eu também senti a dor

E disso tudo eu fiz a rima

Agora tô por conta

Pode crer que eu tô no clima

Eu tô no clima, segue a rima

Revolução na sua mente, Você pode, você faz

Quem sabe mesmo é quem sabe mais

Também sou rimador, Também sou da banca

Aperta forte que tudo fica à pampa

(D#m F#)

Riff4

O que eu consigo ver é só em terço do problema

É um sistema que tem que mudar

Não se pode parar de lutar, se não, não muda

A juventude tem que estar afim

Tem que se unir

O abuso do trabalho infantil é ignorância

Só faz destruir a esperança

Na TV o que eles falam sobre o jovem não é sério (os dois)

Não é sério, Não é sério (os dois)

Deixe ele viver é o que liga

 

O coro vai comê!

Introdução: Cm7 Eb

Cm7

corra vá ver o que acontece e volte aqui pra me falar

o que parou a cidade inteira novamente

Cm7 Eb Cm7 Eb

acordou todo mundo, mulherada muito loca com doce na boca!

Cm7 Eb

meu tu não sabe o que aconteceu, os caras do Charlie Brown

Cm7 Eb

invadiram a cidade, chame sua mãe seu cachorro e sua sogra,

Cm7 Eb

traga todo mundo, o coro vai comê

Cm7 Eb Eb

give it up, hey! Do you really wanna do it boy? Came on!

Cm7 Eb (Cm7 Eb)

give it up, hey, hey, hey, Do you really wanna do it boy, yeah!

Cm7 Eb

you got a biron bacon xotonson, give up, legalize!

Cm7 Eb

travazon , rasga rasgazon, travazon yeah

Cm7 Eb

não vou nem me preocupar, velha chata vai pra lá, yeah

 

[Repete]

 

O lado certo da vida errada

Introdução: C5 Bb5 Ab5 Bb5

Ab5 Eb5

Essa aqui foi uma viagem que eu jamais vou esquecer

Ab5 C5

Só família, até dei "mosh" Eu quebrei dente, eu abalei

C5 Bb5 Eb5 Ab5

Tem roupa no varal Subi o morro e fui considerado

C5 Bb5 C5 G5

Eu não cumpri vacilação Eu sou cantor, eu sou bondade

F5 Eb5 G5 Bb5

Eu sou guerreiro, eu sou irmão O dom que Deus me deu, eu dedico a vocês

G5 Bb5 C5

O dom que Deus me deu, eu dedico a vocês Pra te fazer sorrir

Eb5 B5 Eb5

Pra te fazer cantar Pra te fazer viver Pra te fazer sonhar

 

O Preço

Introdução: Em C

e|-------------0-0-0---------------|

B|-------------1-1-1---------------|

G|-------------2-2-2---------------|

D|-------------0-0-0---------------|

A|-----------3-3-3-3------------3--|

E|-0-2-3-2-0----------0-2-3-2-0----|

Em

Como era difícil acreditar que ia chegar onde estou

C

Que minha vida ia mudar, e mudou

Em

Dificuldade então, passava eu,

C

meu pai, minha família e meus irmãos

Em

Sem perceber larguei escola e fui pra rua aprender

C

Andar de skate, tocar, é, corri pra ver o mar

Em C

Fui atrás do que quis, é sabia só assim podia ser feliz

Em

Eu quero ser feliz, quem não quer ser feliz

Me diz então é preciso chegar em algum lugar

C Em

Ter algo bom pra comer e algum lugar pra se morar

C

Satisfeito então eu faço a preza pros irmãos

Em

Consciente, pé no chão, daqui nada se leva de coração eu faço a preza

C

Existe sempre um outro jeito de se poder chegar

Em

Existe sempre um outro jeito de se poder chegar

C

Existe sim, sangue bom

e|------------------------------------------|

B|------------------------------------------|

G|------------------------------------------|

D|-------------0---------------------0------|

A|-------0---0---3-3-3-3-------0---0---3-3--|

E|-0-2-3---3-------------0-2-3---3----------|

Em

Sempre sonhei em fazer um som que fosse a cara

D C

E então poder chegar em algum lugar

Em

Ver a garota sorrir, a galera gritar,

D C

a multidão a me chamar, ah que lindo está, yeah

Em

Dizem que ele é bom, eu também mostro quem eu sou

Se aquele mano se ligou, Se ele não, demorou

D C

Os manos ali detrás podem ensinar você

Em

Dizem que ele é bom, eu também mostro quem eu sou

D C

Se aquele mano se ligou, se ele não, demorou Os manos ali de trás

Em C

Dei um trocado pra um pivete no farol Olhei pro lado tava o pai

Em

Pensei: "Velho filha da puta, explorador"

C

Mas vai saber, sei lá, Cada um tem sua história,

Em

eu tô aqui pra aprender, não pra julgar, Quem pode me julgar,

C Em C

Pelo menos desde cedo O pivete vai aprender a se virar

Em

Graças a Deus, eu não tive um pai assim

C

Meu pai é um grande homem me ensinou como ser homem também

Em

Longe do velho eu passei fome, isso é passado amém

C

Mas eu tive quem sempre olhou por mim

[Segue...]

Existe sempre um outro jeito de se poder chegar <<Bis>>

Existe sim, sangue bom, Sempre sonhei em fazer um som que fosse a cara

E então poder chegar em algum lugar, Ver a garota sorrir, a galera gritar, a multidão a me chamar, ah que lindo está, yeah

Dizem que ele é bom, eu também mostro quem eu sou

Se aquele mano se ligou, Se ele não, demorou

Os manos ali detrás podem ensinar você, dizem que ele é bom

eu também mostro quem eu sou se aquele mano se ligou, se ele não, demorou

Oba, lá vem ela

Introdução: D5 B5

D5 B5 D5

Oba, Lá vem ela, Estou de olho nela

D5 B5 D5 B5

Oba, La vem ela, Estou de olho nela

D5 B5 D5

A noite é linda E ela mais ainda

B5 D5 B5 D5 B5 D5

Todinha de rosa, Mais linda, mais linda, que uma rosa

D5 B5 D5

Oba, La vem ela Estou de olho nela

D5 B5 D5 B5

Oba, La vem ela Estou de olho nela

D5 B5

Não me importo, que ela não me veja

D5 B5

Não me importo, que ela não saiba quem eu sou

D5 B5

Pois eu sei muito bem quem ela é e fico contente só de ver,

D5 B5

só de ver ela passar, uô, uô

D5 B5 D5

Oba, Lá vem ela, Estou de olho nela

D5 B5 D5 B5

Oba, La vem ela, Estou de olho nela

 

Ouviu-se Falar

Introdução: C#5 A5 B5 F#5 C#5 A5 B5 F#5 C#5 A5 B5 F#5 C#5 A5 B5 F#5 C#5

C# A

Ouviu-se falar Que estive pra desistir

B F# C# A B F#

Ouviu-se falar Desistir não, porque

 

(G# F# Em F# B F# Em F#)

Por Deus me faça entender que eu tenho algo a dizer

Eu estive pra explodir nem penso nisso mais, yeah

(C#5 A5 B5 F#5)

Quero ouvir a sua voz chamar por mim

Quero ouvir você falar que tem todo tempo do mundo

Pra me ouvir falar de nós desistir não, porque

(G# F# Em F# B F# Em F#)

Não vou mentir, penso muito em nós, Não vou mentir, nos destrói

(C#5 A5 B5 F#5)

Quero ouvir a sua voz chamar por mim

Quero ouvir você falar que tem todo tempo do mundo

Pra me ouvir falar de nós desistir não, porque

(C#5 E5 F# G#5)

Ouviu-se falar, Ouviu-se falar, Ouviu-se falar, E é só!

 

 

Pra mais tarde fazermos a cabeça

Base (tocada em toda a música):

G|--------------------------------------|

D|--------------4-3---------------------|

A|-6-6-6-6-6--6-----6-------------------|

E|----------------------2-2-2-2-4-2-1-0-|

 

Como quem vai, a gente impera

não sobra nem a ponta Santos, Charlie Brown!

Num inferno quadrado, embaçado e trancado

Cheio de maus olhares querendo comer, o soco, aqui

Fumo um negócio e enlouqueço e tropeço direto pro meu ensaio tocar

Fazer minha banda rolar, Num pago, não devo dinheiro, tiro certeiro

É a base da vida pra poder morar para as pessoas é só o que importa,

Se enrola, se vira e se fode Eu não devo te facilitar!

Eu pensei que fosse fácil de entender,

Eu pensei que fosse fácil de esquecer,

Não deixar de ser quem você é Não vá deixar se levar,

pense bem no que for fazer Eu nunca paguei por sonhar

Charlie Brown

Sangue bom, nosso sócio diz que não vai ter pra já

Pra mais vai descolar pra mais tarde fazermos a cabeça

Um, Dois, rap consciente é bom pesado

é pé no chão, a cor da pele é branca mas, o som é de revolução

a vida quis assim, só assim me desculpe a minha então mas,

o som que eu mais me identifico é com som de ladrão

Champignon como é que fica então

Charlie Brown

Pensei que fosse fácil de entender

Eu pensei que fosse fácil de esquecer

Não deixar de ser quem você é, Não vá deixar se levar,

pense bem no que for fazer eu nunca paguei por sonhar

Anderson Franja entrou pra família,

a mesma família da grande família,

eu digo, Anderson Franja entrou pra família,

a mesma família da grande família

Como é muito humilde, muro de tijolo nem acabamento tem mas

ele tem o Dom de Deus o Dom mais puro que tem eu digo: Amém!

Se Deus me trouxe aqui foi pra me mostrar

Me lembrar e definitivamente me provar que

Não importa o lugar e sim, Como você se sente

Bote a cabeça pra pensar, abra a sua mente

Charlie Brown Jr, Disco 3, Ano 2000, Outra vez!

 

 

Proibida Pra Mim

Introdução: F C Bbm Ab

Eb Bb

Ela achou meu cabelo engraçado

Cm Ab

Proibida pra mim, "no way"

Eb Bb

Disse que não podia ficar,

Cm Ab

mas levou a serio o que eu falei

>>>Trecho1:

Eb Bb

Eu vou fazer de tudo que eu puder

Cm Ab

Eu vou roubar essa mulher pra mim

Eb Bb

Eu posso te ligar a qualquer hora

Cm Ab

Mas eu nem sei seu nome

Eb Bb

Se não eu, quem vai fazer você feliz?

Cm Ab

Se não eu, quem vai fazer você feliz?

Eb

Yeah!

Bb Cm Ab

[SOLO]

Eb Bb

Eu me flagrei pensando em você,

Cm Ab

em tudo o que eu queria te dizer

Eb Bb

Numa noite especialmente boa ,

Cm Ab

Não a nada mais que a gente possa fazer

 

[Trecho1, Voltar e Seguir]

Eb Bb

Se não eu, quem vai fazer você feliz?

Cm Ab

Se não eu, quem vai fazer você feliz?

F C Bbm Ab

 

Quebra mar

Introdução Guitarra: F#m

 

Riff 1:

E------------------

B------------------

G------------------

D------------------

A-----2-4----------

E--5------2--------

 

 

Riff 2: (F#m B)

E---------------------------------------------

B--7-3-2-1-2-12-10--12-15-17-19---------------

G---------------------------------------------

D------------------------------------4-2------

A----------------------------------------2-4--

E---------------------------------------------

 

Riff 3: (F#m)

E------------

B------------

G------------

D------------

A----2-4-----

E-5------2---

Riff 4: (E)

F#m

E-2-------2-- <<Tocar 4 Vezes>>

B-2-3-2-1-2

 

[Riff4]

eu não vou mudar mas minha vida agora é outra

eu vou tentar entender o que sai da tua boca

é só por isso, vivo por isso, sem isso eu não vivo pode acreditar

rua de concreto sangue nobre água do mar

cheiro na brisa no olhar, cheiro na brisa do olhar

vivo mané trazer vem, vivo mané buscar vai

vim pra mostrar poder vem vim pra te alucinar

eu não fico dividido sei bem porque tomo partido

o sistema é falido e já aconteceu comigo

eu não vou mudar mas minha vida agora é outra

eu vou tentar entender o que sai da tua boca

é só por isso, vivo por isso, sem isso eu não vivo

pode acreditar rua de concreto sangue nobre água do mar

cheiro na brisa no olhar, cheiro na brisa no olhar

F#m A B

o que não pode é essa situação

F#m A B

O que eu não gosto eu me livro e digo não <<Bis>>

 

Riff 2

F#M

E--------------------------------

B---------------------------------

G--------------------------------

D--------------------------------

A-------------------------------

E-2-2-5-4-2-2-4-3-- Tocar 4 Vezes>>

 

[Riff 4]

vivo mané trazer vem, vivo mané buscar vai, vim pra mostrar poder

vim pra te alucinar, eu não fico dividido

sei bem o meu partido sistema falido já aconteceu comigo

F#m A B

o que não pode é essa situação

F#m A B A D B

O que eu não gosto eu me livro e digo não, não

F#M A

o que não pode é essa situação

D B

o que eu não gosto eu me livro e digo não

D C# C B A G# F#M

[SOLO]

 

 

Quinta-Feira

Introdução: G C F C G C F C

Em7

Ainda me lembro bem daquela quinta-feira, Cinco malandro em volta da

Em7

fogueira, yeah, Fogueira, yeah! Ouvi o grito de dor de um homem

que falava a verdade , mas ninguém se importava

D Em7 C D

Botando pra fora tudo que sentiu na pele Mas ninguém lhe dava ouvidos não

G C F C

Deixou a marca da fogueira que acendeu pra se Livrar do frio que mata

G C F C

Miséria impune, notável, Sincera não acaba nunca, yeah!

G C F G C

Parecia ofensiva mas te dominou, te dominou, te dominou, Dominou

G C F G C

Parecia ofensiva mas te dominou, te dominou, te dominou, Dominou

G C F C

[SOLO]

Em7

O difícil é desviar de quem tá sempre querendo ela mantém a porta aberta

D Em7 C D

Ela te faz de instrumento, Vai te dominar, se já não dominou, yeah!

Em7

Ouvi o grito de dor de um homem que falava a verdade

D Em7

Mas ninguém se importava Botando pra fora tudo o que sentiu na pele

Ninguém lhe dava ouvidos não

G C F C

Deixou a marca da fogueira que acendeu pra se Livrar do frio que mata

G C F C

Miséria impune, notável, Sincera não acaba nunca, yeah!

G C F G C

Parecia ofensiva mas te dominou, te dominou, te dominou, Dominou

G C F G C

Parecia ofensiva mas te dominou, te dominou, te dominou, Dominou

G C F C

[SOLO]

G C F G C

Parecia ofensiva mas te dominou, te dominou, te dominou, Dominou

G C F G C

Parecia ofensiva mas te dominou, te dominou, te dominou, Dominou

Ralé

Main Riff

G|---------------------------|

D|---------------------------|

A|-------7-7-----------------|

E|-7-9-7----7-9-7-9-7-0-0-0--|

 

Resolve meu problema ai

Introdução:

e|-----------------------------

B|-----------------------------

G|-----------7-6-4-4-6-7-7-9-9-

D|4--4-6-7-7-7-6-4-4-6-7-7-9-9-

A|4--4-6-7-7-5-4-2-2-4-5-5-7-7-

E|2--2-4-5-5-------------------

 

 

Guitar 2:

B||7/10-7-5-3-5-7-7/10-7-5-3-5-7-7/10-7-5-3-5-7-12-12-14-14-7-

 

 

Refrão (F# D)

e|--------------

B|--------------

G|7-6-4-6-4-2---

D|7-6-4-6-4-2-4-

A|5-4-2-4-2-0-4-

E|------------2-

 

Final:

e|------------------------------------------

B|------------------------------------------

G|--------9-4-4---------9-4-4---------9-4-4-

D|4-4-----9-4-4-4-4-----9-4-4-4-4-----9-4-4-

A|4-4-----7-2-2-4-4-----7-2-2-4-4-----7-2-2-

E|2-2-7-9-------2-2-7-9-------2-2-7-9-------

<<Tocar Várias Vezes>>

 

 

Rubão

Introdução: A#m C# D# F# F A#m C# D# F# F <<Tocar 4 Vezes>>

A#m C# D# F#

Desempregado e falido Andava pela rua

A#m C# D# F# A#m

Largado e fudido Mas tinha na rua

C# D# F# A#m C#

uma carteira recheiada de dólar Acabou sua miséria

D# F# A#m C# D# F#

Foi-se o tempo da esmola O bom rapaz

A#m C# D# F#

Vivia Desempregado e Falido

A#m C# D# F#

mas tinha uma carteira recheiada de dólar

A#m C# F#m F#

Acabou sua miséria Foi-se o tempo da esmola

A#m C# D# F# C# A#m

Rubão, Rubão, Pagou pra ver enterrar o ladrão

C# D# F# A#m C#

Qual é o sentido da Vida? Rubão, Rubão

D# F# C# A#m C# D# F# C# A#m

Pagou pra ver enterrar o ladrão Desiludido da vida

A#m C# D# F#

Comprou várias mulheres, Convocou os amigos

A#m C# D# F#

Comprou todos os esquemas Mandou matar os inimigos

 

Sheik

Riff 1:

e|-8-8-8----4-4~8-|

B|-9-9-8----4-4~8-|

G|-8-8-8----4-4~8-|

D|----------------|

A|----------------|

E|----------------|

 

[Riff 1]

Eu sou o Sheik tenho mais de mil mulheres no meu harém

minha barraca ta armada e não tem pra ninguém

com meu petróleo tua máquina funciona bem

vou te comprar pro meu harém

Porque eu só moro em cobertura, só ando em limusine

um milhão no porta mala cinco mina de biquíni

eu sou o Sheik, Sheik, Sheik vou te comprar pro meu harém

Poligamia casei com tua irmã com tua prima e tua tia

Você no meu lugar não vai dizer que não faria?

Tudo traz a lembrança da lenda da fenda

fica induzindo ele rumar pra lá estúpido ele fica, assim ela é linda

Ela vem, ela abala, ela é má Xexecar o que ela tem pra me entreter

é mais ou menos parecido com a mulher do Canadá

A#m Fm G#m F#m

Sheik, Sheik, Sheik, Sheik, Sheik <<Bis>>

 

Sino Dourado

Introdução*: Abm Fm

 

Abm Fm

Eu nunca duvidei não fiz aposta

Abm Fm

Eu me esforcei pra ser do jeito que ela gosta

Abm Fm

Quem disse que elas precisam de nós?

Abm Fm

Quem disse que elas precisam de nós?

Abm Fm

Me lembro dela ainda uma menina

Abm Fm

Subiu pra mente, ela virou minha sina

Abm Fm

Quem disse que o tempo importa pra nós?

Abm Fm

Fiquei feliz quando ficamos a sós

 

*Tocar abafado

(Abm Fm)

Ela me disse que o segredo do sucesso está no sino dourado

Que o segredo só sucesso está no sino dourado

Quem disse que elas precisam de nós, Fiquei feliz quando ficamos a sós

(AbmFm)

Entendo que as garotas de hoje em dia

estão ligeiras e tem boas amigas

Quem disse que elas nunca brincam a sós,

Quem disse que elas precisam de nós

Abm Fm Abm Fm

Eu vou fazer um colar de pérolas que eu roubei das flores que eu colhi

Abm Fm Abm Fm

Eu vou fazer um colar de pérolas que eu roubei das flores que eu colhi

Ela me disse

(B5 Abm Eb5)

Eu me esforcei pra te fazer sorrir não é fácil resistir

 

Só Lazer

Introdução: Eb B Db Bb Eb B Db Bb

Eb

Se uma mansão e um carro gringo é o que te atrai

B Db Bb

Se um videoclipe do "Twister" te distrai

Eb

É tão bom fingir que a vida é assim

B Db Bb

Só lazer paz e amor pode crê

Eb

Na vida existe muito pouca coisa que não se pode comprar

B Db Bb

O que o dinheiro não compra Você tem que conquistar

Eb B

Eu tenho o dom, tenho fé E tudo o que o sistema quer

Db Bb

Mas, só quem é, é que é

Eb

Se pudessem comprar minha confiança

Bb Gb

Com um tapinha nas costas já teriam comprado

Eb

Se pudesse comprar minha confiança

Bb Gb

Com xaveco barato já teriam comprado

Eb B Db Bb Eb B Db Bb

[SOLO]

Eb

Rei na barriga tipo o dono da verdade

B Db Bb

Queimando até as cinzas na fogueira da vaidade

Eb B Db Bb

Tão bom fingir que a vida assim, é só lazer Paz e amor pode crê <<Bis>>

Eb

Num dia você vai descobrir que o esquema é só pra te roubar

B Db Bb

E mesmo você sendo contra eles vão te recrutar

Eb

Te raspar a cabeça inteira e te uniformizar

B Db Bb

Te dão a arma e licença pra matar

[Repete]

 

Somos extremes no esporte e na música

Fica a música inteira o baixo fazendo isso:

G:----10---6-----8--8----6--|

D:----11---7-----9--9----7--|

A:--------------------------|

E:----9----5-----7--7----5--|

 

Violão:

e:----------------------|

B:----------------------|

G:----------------------|

D:----------------------|

A:----8---4----6-6---4--|

E:----9---5----7-7---5--|

 

 

Descer do corrimão não é pra qualquer um não,

skate não é crime manobra de ação

esporte é um mercado aí você revolucionário

quem anda de skate não é embalo

quem anda de bike não é otário quem joga capoeira e não é picareta

seu muito bem que é muito difícil praticar

o seu esporte sem nenhum incentivo

com técnica, muito esforço e raciocínio de back,

de front, sem pagar, de "style",

tem que ser de alma tem que ser "for fun"

sou rap da periferia que domina com ação e atitude

o Dom da palavra somos todos streeteiros vagabundo é mal

mas minha cara e meu estilo é bem o beiral

somos todos streeteiros vagabundo é mal mas,

minha cara e meu estilo é bem o beiral

é bem overall, é bem overall, Mikimba,

D menos crime, esporte e ação, é bem overall <<Bis>>

Uma cigarra se encantou na minha mão, anunciando a chagada do verão

Verão aqui é legal, Brasil, bunda, carnaval mas,

Na verdade todo mundo quer ver sangue,

ver sangue é que é legal, todo mundo pára para ver o caos

O batuque e o massacre, O batuque e o crack

O batuque e a bola, O pobre sempre é a bola <<Bis>>

A bola da vez vejam vocês se vocês querem me ouvir eu falo hoje pra vocês

alguns tem demais alguns tem menos alguns tem demais alguns tem de menos

Tudo skatista na pista, mista,

racista não cola não na pista, rá! <<Bis>>

Tudo skatista na pista, mista,

racista não cola não na pista, rá! <<Bis>>

Eu sou de Santos, sou Charlie Brown

molecada só de bomba no canal

somos todos streeteiros, vagabundo é mal

mas minha cara e meu estilo é bem overall, é bem overall

somos todos streeteiros vagabundo é mal mas,

minha cara e meu estilo é bem overall

 

T.F.D.P.

Introdução:

e---6---6-----6------6---6-----6------6---6-----6------6---6-----6---

B--8-8-8-8---8-8----8-8-8-8---8-8----8-8-8-8---8-8----8-8-8-8---8-8--

G-6---6---6-6---6~-6---6---6-6---6~-6---6---6-6---6~-6---6---6-6---6~

D--------------------------------------------------------------------

A--------------------------------------------------------------------

E--------------------------------------------------------------------

(E5 C5 D5)

 

Talvez na metade do caminho

Introdução: Ab Bb Db Dbm7M Db Dbm7M Db Dbm7M

Ab Bb Db Eb Ab Bb Db Eb Ab Bb Db Eb Ab Bb Db Eb

(Ab Bb Db Dbm7M)

Eu queria Ter voltado no tempo não deixar faltar

O que te faz mais falta, Hoje eu tenho tudo que eu podia querer

Mas dinheiro não é tudo tenho muito a fazer, muito a fazer

(Ab Bb Db Eb)

Se você quer rodar Eu vou guiar, Vamos fazer o melhor que há

Se você quer rodar, Eu vou guiar, Coisa no mundo melhor não há

(Eb F Db)

O melhor da vida é aprender bem, mas um dia se sabe

(Ab Bb Db Dbm7M)

Tento me lembrar de um sonho que tive com você

Nos meus braços você se foi nos seus braços eu quero acordar

E das coisas que você me fez porque não quis me incentivar a dar a volta

Mas verdade é que a distância entre nós me fez tanta falta

(Ab Bb Db Eb)

Se você quer rodar, Eu vou guiar, Vamos fazer o melhor que há

Se você quer rodar, Eu vou guiar, Coisa no mundo melhor não há!

(Ab Bb Db Eb)

Se você quer rodar Eu vou guiar vamos fazer o melhor que há

(Eb F Db)

O Dom que Deus te deu entrou pra história do templo

(E5)

Charlie Brown Jr, ano 2000, disco 3

(Bb Db)

Vai com Deus meu pai, vai

(Ab Bb Db Eb)

Se você quer rodar Eu vou guiar vamos fazer o melhor que há

(Ab Bb Db Eb)

Se você quer rodar Eu vou guiar coisa no mundo melhor não há!

(Eb F Db)

O Dom que Deus te deu entrou pra história do templo

 

Te Levar

(D A F#m G)

Tive pensando em me mudar sem te deixar pra trás

Resolvi pensar em nós, vou te levar daqui, vou te levar, te levar daqui

Aquele tempo ficou pra trás eu nunca fui feliz ali

Resolvi pensar em nós, vou te levar daqui, vou te levar, te levar daqui

Eu tenho história, de anos de gloria

Mas só deixe eu te contar o que eu passei por lá

Mas inda fico impressionado com as coisas da cidade

Aqueles manos se foram, chegaram, anos se foram, pra onde foram?

Ninguém sabe, ninguém vai, anos e anos na correria, vai leva e traz

Anos e anos na correria, vai leva e traz

B E B E

Resolvi pensar em nós, vou te levar daqui

D A F#m G

Vou te levar, te levar daqui

Transar no Escuro

Introdução: C# A C# A D A E D A B

(C# A)

O bom é ver o que se faz, mas

Ela gosta de Transar no escuro

No escuro a coisa ferve mais,

Mas o dom é ver o que se faz

D A E F#

Passou, por mim fez que não me viu, mas

D A B

Deixou pra mim Um pouco mais daquele andar

(C# A)

Eu sei, sigo a vontade então eu fico a vontade então

Você me deixa à vontade então que eu te deixo à vontade então, Yeah

C# A C# A

[SOLO]

 

Tudo Mudar

Eb C

Quando eu vi você quase não acreditei

Ab Bb

Nem vi você mudar , nem vi você crescer , mas

Ab Bb

Nunca te imaginei assim

Eb C

Quando me aproximei mal sabia o que falar

Ab Bb

Nem vi você mudar , nem vi você crescer , mas

Ab Bb C Ab

Nunca te imaginei assim Como pode tudo mudar

Bb C Ab

Em um segundo nem pensar Não vou voltar atrás

Bb Ab

Agora é assim que vai ser

Riff 1:

Eb Bb

e|--------------------------------------|

B|-11-11-11-11-9-8-9-11-11-11-11--------|

G|-8--8--8--8--8-8-8-8--8--8--8--12>-10-| <<Bis>>

D|-------------------------------10>-8--|

A|--------------------------------------|

E|--------------------------------------|

 

Eb C

Difícil acreditar que depois de muito tempo eu iria me ligar em você

Eb Eb Bb

Não posso acreditar Quando me aproximei mal sabia o que falar

Ab Bb Ab Bb

Nem vi você mudar , nem vi você crescer Nunca te imaginei assim

C Ab Bb

Como pode tudo mudar Em um segundo nem pensar

C Ab Bb Ab

Não vou voltar atrás Agora é assim que vai ser

Eb Ab Bb Ab Gb

Tudo mudar, Tudo mudar , Tudo Mudar

[SOLO]

Tive pensando em me mudar, sem te deixar pra trás,

Resolvi pensar em nós, Vou te levar daqui

Tudo mudar, Tudo mudar, Tudo mudar

[Repete]

 

Tudo Pro Alto

Introdução: Db5 Eb5

 

[Riff 1]

(Db5 Eb5 Bbm)

Jogar tudo pro alto lhe convém ?

Estar acima da razão

Só porque somos jovens, só porque somos jovens

Desesperado com o mundo estou também

Escondem tudo na TV e não contam a ninguém

(Db5 Eb5 Bbm Abm Bbm)

Estou confuso joguei tudo pra trás

Mas no fundo eu sei que eu não tentei de tudo

Mas que bom poder ter uma chance a mais

Estou confuso joguei tudo pra trás

Mas no fundo eu sei que não tentei de tudo

Que bom poder ter uma chance a mais

(Db5 Eb5 Bbm)

Tratado de forma que não deu pra entender tanta frieza

Disposição de sobra , vou vencer assim mesmo

Já nem lembro de vocês

(Db5 Eb5 Bbm Abm Bbm)

Então é o vício o que te faz correr atrás

De mais que o início

Bem que eu te avisei aquela vez que eu te encontrei

[Riff 2]

Ta-ra, ta-ta, ta-tá

(Db5 Eb5 Bbm)

A vida corre pelas ruas numa busca sem sentido

Enquanto o mundo está em guerra por paz

Não me pergunte o que eu quero da vida que eu quero da vida

Eu tenho sede de mais

A vida flui na sua loucura e o momento é decisivo

Mas agora estou confuso de mais não me pergunte o que eu quero da vida

Não me pergunte o que eu quero da vida , eu tenho sede de mais

(Db5 Eb5 Bbm Abm Bbm)

Mas deixe eu só te dizer o quanto eu quero bem você...

[Riff 2]

Ta-ra, ta-ta, ta-tá

 

 

Riff 1:

e|----------------------------------------------|

B|-11-11---9-9--6----11-11---9-9--6---6/7~-6~~~~|

G|----------------------------------------------|

D|----------------------------------------------|

A|----------------------------------------------|

E|----------------------------------------------|

 

Riff 2:

Db5 Eb5 Bbm Abm Bbm

e|------------------------------------|

B|------------------------------------|

G|------------------------------------|

D|-----3-----3-----5-----5------------|

A|-4-4---4-4---6-6---6-6--------------|

E|-------------------------6~-4~-6~~~-|

 

Tudo que ela gosta de escutar

Introdução: Cm7 Eb9 Cm7 F

 

>>>Trecho1:

Cm7 Eb9 Cm7 F

Essa é uma história de amargar conheci uma garota

Cm7 Eb9 F

meu irmão eu vou lhe falar

Cm7 Eb9 Cm7

tudo que ela quer o pai dela dá

F Cm7 Eb9 Cm7 Eb9 F

desde casa em Ubatuba ,até apê no Guarujá

Cm7 Eb9 Cm7 F

[SOLO]

Cm7 Eb9 Cm7 F

fim de festa olho pra ela, ela sorriu pra mim

Cm7 Eb9 F

me secou a noite inteira ela só pode estar a fim

Cm7 Eb9 Cm7 F

ela tem carro importado e telefone celular

F Cm7 Eb9 Cm7 Eb9 F

eu só tenho uma magrela e um apê no BNH

 

 

Cm Eb Cm

eu falo tudo que ela gosta de escutar

F Cm Eb Cm Bb

deve ser por isso que ela vem me procurar, ah, ah,

Cm Eb Cm F

eu falo eu falo tudo que ela gosta de escutar

Cm Eb Cm Bb

deve ser por isso que ela vem me procurar

Cm7 Eb9 Cm7 F

o pai dela riu de mim porque o meu carro é popular

Cm7 Eb9 Cm7 Eb9 F

e ainda me deu uma notícia de desanimar

Cm7 Eb9 Cm7 F

"rapaz você não é bom pra minha filha não,

Cm7 Eb9 Cm7

quem é teu pai? quem é você? oquê que você faz?

Eb9 F

vou investigar você" Há, há, ho, ho,

[Repete]

Vinheta União

 

Riff 1:

e:---------------------------|

B:---------------------------|

G:---------------------------|

D:---------------------------|

A:---------------------------|

E:----0-3-4-5-5---5-5-0-0----|

Riff 2:

C#m G#

e:--4-4--4-4-----------------|

B:--5-5--4-4-----------------|

G:--6-6--4-4-----------------|

D:---------------------------|

A:---------------------------|

E:---------------------------|

 

[Riff 1]

Do lado leste da periferia de São Paulo

DRR de São Mateus pra vida, HC CH DEFC Homens crânio

Charlie Brown Jr. Rajjah de Santos Diretamente pra vocês

Entrei em cena, qual é o problema?

do hip hop, do reggae, do raggae, do rock, não tem stop

passando a mensagem pros manos nada de engano

só proceder a nossa firma é forte e você pode crer

sou anti paga pau meu dilema nacional

me apresento sou Rajah da família Charlie Brown

[Riff 2]

Eles não entendem não vão descobrir dominado pela má vontade

Tire esse cara de perto de mim não compare o que tu faz

não peça pra ninguém, ninguém vai consumir

Não se queixe da falta do peixe, Não deixe o mar te engolir, yeah <<Bis>>

[Riff 1]

É HC que chega assim que chega pra manter a letra

letra é Aba que é classe A, aqui quem fala é H

HC, HC, HC, HC, revolucionário a letra fica pra você

não perde o crime o crime é o crime, crime é organizado

do lado leste HC revolucionário contra

a burguesia que nos aponta como marginal

homens criminal mentes criminal, lavagem cerebral,

morte cerebral , sistema central cerebral

é trilha sonora do gueto de leste oeste norte sul

o negro D menos crime, sou sobrevivência, olha a carência

[Riff 2]

por aqui, por ali, só sangue que se vê

resulta a periferia quem não acredita

confira quem não acredita, confira para ver para ver <<Bis>>

[Riff 1]

Não nem Flagrante não, não tem flagrante não

já bolou acendeu virou fumaça

subiu pra cuca fim do silêncio "De Menos Crime"

Não deixa agora malandro que é malandro

sempre segue o ritmo da favela

e daí como é que é? Ha, Ha, Ha, fogo na bomba

bebida, química, nada disso ameniza, prefiro ficar na brisa

sem desarrumar, um, dois, passa a bola ladrão quer fumar

um, dois, sem marcar, rapaziada firmeza pega o seu e fica a pampa

sem armas sem drogas.

 

Você vai de limusine, eu vou de trem

Introdução: C#m F#m A#5 G#m

(C#m F#m A#5 G#m)

Você me diz que sou desajeitado, Eu não sou ninguém

Me tira o sono só pra se sentir bem desajeitado

Eu não sou ninguém, me tira o sono só pra se sentir bem

O mundo dá várias voltas

Tomara que um dia ele leve meu caminho a você

Não tenho grana não mas quando tu chegar

Já vou tá lá tu vai me ver

Desajeitado eu não sou ninguém

Me tira o sono só pra se sentir bem <<Bis>>

O mundo dá várias voltas

Tomara que um dia ele leve meu caminho a você

Não tenho grana não, Mas quando tu chegar

Já vou tá lá tu vai me ver

Sei que um sorriso seu faria bem

Tu vai de limusine eu vou de trem <<Bis>>

Mas se eu sou um, em um milhão, O que fazer então

Não tenho grana, tenho um grande coração

Não quero ver, quero botar a mão

Pode acreditar, tu vai comer na minha mão

Sei que um sorriso seu faria bem

Tu vai de limusine eu vou de trem <<Bis>>

O mundo dá várias voltas

Tomara que um dia ele leve meu caminho a você

Pois com você estou em casa

Zoio de Lua

Introdução: C#m G#m

(C#m C#m G#m G#m)

Tirou a roupa, entrou no mar

pensei meu Deus, que bom que fosse

Tu me apresenta essa mulher,

meu irmão te dava te um doce

Sem roupa ela é demais

Também por isso eu creio em Deus

Meu bom, meu Deus,meu bom, me traz

Ainda bem que eu trouxe até? meu guarda-sol

Tenho toda tarde, tenho a vida inteira

Já sei foi aquele tempo

da ladeira irmão

Já se foi aquele tempo

da ladeira irmão

C#m C#9

Meu escritório é na praia, Eu to sempre na área

C#m B

Mas eu não sou da tua laia não

 

 

SOLO:

e---------------------------------------------------------------------

B---------------------------------------------------------------------

G---------------------------------------------------------------------

D--------------1-2-1------------------1-2-1---4-----------------------

A-0-2-4-4-4--4-------2-2-0-2-4-4-4--4-------4-------------------------

E---------------------------------------------------------------------

 

Então!

(C#m G#m)

Deixe viver, Deixe ficar, Deixe estar como está <<Bis>>

(C#m C#m G#m G#m)

Meu Deus, me dê um motivo pois eu pago tanto mico

Ela me ignora, na esperança ainda fico Eu to fritando aqui,

Eu vou me entregar,não aguento mais

Mas se eu não falar hoje talvez nunca veja mais, pois

O dia passa, horas se estendem, as pessoas ao redor nunca me entendem

O dia passa, horas se estendem, as pessoas ao redor nunca me entendem

 

[Repete]